cj.vino akbar from 107.3 Fm E-radio study n fun station

walcome to my blog. to the reader's please menikmati ondition in my blog to your hapyy.

search

Memuat...

12.28.2008

dolanan gitar yups...ni kuncinyaaa

intro] C F C F

F C
kau diam tanpa kata
Dm Am G
kau seolah jenuh padaku
F C
ku ingin kau bicara
Dm Am G
katakan saja apa salahku

F
sungguh aku tak mengerti
Dm
apa yang tlah terjadi
F
dan ku tak ingin engkau pergi jauh
Dm G
dari hidupku

[chorus]
C G/B
kau takkan pernah sadari
Am G
betapa ku mencintaimu
F
kau yang selalu
Fm
aku banggakan

[intro] C F

F C
ku ingin kau bicara
Dm Am G
katakan saja apa maumu

F
lihat aku coba kau mengerti
Dm
ini semua bisa teratasi
F
resah bila semua yang pernah
Dm G
kita lakukan

[chorus2]
C G/B
kau takkan pernah sadari
Am G
betapa ku mencintaimu
F
kau yang selalu
Fm
aku banggakan
C G/B
kau takkan pernah sadari
Am G
betapa ku menyayangimu
F
kau yang selalu
Fm
aku inginkan

[intro] Dm Em F G

Dm
kau yang kuinginkan
Em
kau yang kubutuhkan
F
kau yang kuharapkan
G
haaa...

[coda] C F C F C












PUSPA (ST-12)
e|------------------------------------------------------
b|-----------------8-8---6p5-6--8-6-5---------8-6-5-5---
g|---7-9-7-9---7-9--------------------7---4h7-----------
d|-----------10-------------------------5---------------
a|------------------------------------------------------
e|------------------------------------------------------

e|----------------------------------------------------------
b|-12-13-12-13-------------------------13-15-17-17-17b-15---
g|----------------------------12-14-16----------------------
d|-------------------12-14-15-------------------------------
a|-------------12-14----------------------------------------
e|----------------------------------------------------------

e|---------------------------15----13----12-------------
b|-------13-------13--12-13----12----12----12---15-12---
g|-12-16----12-16----------------12----12----12------12-
d|------------------------------------------------------
a|------------------------------------------------------
e|------------------------------------------------------

e|---------------------------------------------
b|-13p12--12h13----13---15--15/17-13-----------
g|------14------/12---12-------------12\-9/10--
d|---------------------------------------------
a|---------------------------------------------
e|---------------------------------------------


MERINDUKANMU (D’MASIV)

E -------------------------13---------------------------------
B -------13----13-15-15b17----15~--13-13/15-12----12-13-13b15-
G -10/12----12---------------------------------12-------------
D ------------------------------------------------------------
A ------------------------------------------------------------
E ------------------------------------------------------------


E -----------15-----------------------------------------------
B -13-13/15-----15/17----13-12-13-13^15^13-12-----------------
G ------------------------------------------------------------
D ------------------------------------------------------------
A ------------------------------------------------------------
E ------------------------------------------------------------
SWEET CHILD O’MINE (GUN N’ROSES)
D
|--------------15----14-----|--------------15----14-----|
|-----15--------------------|-----15--------------------|
|--------14-12----14----14--|--------14-12----14----14--|
|--12-----------------------|--12-----------------------|
|---------------------------|---------------------------|
|---------------------------|---------------------------|

C
|--------------15----14-----|--------------15----14-----|
|-----15--------------------|-----15--------------------|
|--------14-12----------14--|--------14-12----------14--|
|--14-----------------------|--14-----------------------|
|---------------------------|---------------------------|
|---------------------------|---------------------------|

G
|--------------15----14-----|--------------15----14-----|
|-----15--------------------|-----15--------------------|
|--12----14-12----14----14--|--12----14-12----14----14--|
|---------------------------|---------------------------|
|---------------------------|---------------------------|
|---------------------------|---------------------------|

D (end of Riff A1)
|--------------15----14-----|--------------15----14-----|
|-----15--------------------|-----15--------------------|
|--------14-12----14----14--|--------14-12----14----14--|
|--12-----------------------|--12-----------------------|
|---------------------------|---------------------------|
|---------------------------|---------------------------|

Riff A2:
D
|--12------------12----14---|--15----14----12---------------14---|
|---------15----------------|---------------------15--------15---|
|-----14------14----14---14-|-----14----14----14------14----14---|
|---------------------------|------------------------------------|
|---------------------------|------------------------------------|
|---------------------------|------------------------------------|

Verse: Play the chords D C G D (twice) with arpeggios
let the arpeggiated chords (D C G D) ring whenever possible



Hope you could manage it. Please rate it.

Chorus:
A5 C5
|---------------------------|--------------12----10-----|
|--14-14-------15----14-----|--13-13--------------------|
|--------14-------14----14--|--------12-10----12----12--|
|-----------14--------------|---------------------------|
|---------------------------|---------------------------|
|---------------------------|---------------------------|

D5 D5
|--------------15----14-----|--------------15---14-----|
|-----15--------------------|-----15-------------------|
|--------14-12----14----14--|--------14-12---14----14--|
|--12-----------------------|--12----------------------|
|---------------------------|--------------------------|
|---------------------------|--------------------------|

A5 C5
|---------------------------|--------------12----10-----|
|--14-14-------15----14-----|--13-13--------------------|
|--------14-------14----14--|--------12-10----12----12--|
|-----------14--------------|---------------------------|
|---------------------------|---------------------------|
|---------------------------|---------------------------|

D5 D5
|---------------------------|---------------------------|
|--------15-----------------|---------------------------|
|--12s14--------------------|---------------------------|
|---------------------------|---------------------------|
|---------------------------|---------------------------|
|---------------------------|---------------------------|

Fill 1:
|-------------------------------------------------------------|
|---10---8--7-----10--8--7----10---8------10---8-----10--8---|
|-------------------------------------9------------9----------|
|-------------------------------------------------------------|
|-------------------------------------------------------------|
|-------------------------------------------------------------|


|------------------10--10fb-(10)---------------|
|-10fb-(10)8--10fb-----------------------------|
|--------------------------------9fb-----------|
|----------------------------------------------|
|----------------------------------------------|
|----------------------------------------------|

Verse & chorus: same as above

Fill 2:
|-------------------------------------------------------------|
|---10---8--7-----10--8--7----10---8------10---8-----10--8---|
|-------------------------------------9------------9----------|
|-------------------------------------------------------------|
|-------------------------------------------------------------|
|-------------------------------------------------------------|

|--------------------------------10--------------------|
|-10--8-7hb--(7)----7hb------------(7)-----10----8--7-|
|------------------7-----------------------------------|
|------------------------------------------------------|
|------------------------------------------------------|
|------------------------------------------------------|


|------------------------10----10--8-------/12--------|
|-10---8----7-----/10fb--------------------------------|
|------------------------------------------------------|
|------------------------------------------------------|
|------------------------------------------------------|
|------------------------------------------------------|

|--12---12--10---10-(10)-8---7hb--(7)----------------|
|-----------------------------------------8------------|
|---------------------------------------------7-~~~~~~~|
|------------------------------------------------------|
|------------------------------------------------------|
|------------------------------------------------------|

|-----------------------10---10fb--(10)-------------17----(17)|
|-10fb--(10)p8---10fb-------------------17fb---(17)-------(17)|
|-------------------------------------------------------------|
|-------------------------------------------------------------|
|-------------------------------------------------------------|
|-------------------------------------------------------------|

Chorus (3rd time): Fill 3:
A5 C5 D5 (fill3) |-----------------------------|
A5 C5 D5 |--7hb------------------------|
A5 C5 D5 (fill3) |------7----------------------|
A5 C5 D5 |--------7--5-/-4---0---------|
D5 D#5 |----------------------3hb----|
and then the solo... |-----------------------------|

Solo:
Em C B7
|-17fb--hold---15--14--h15p14-----------15--14--h15p14-----------12--14-|
|-----------------------------17-----------------------17-16------------|
|-----------------------------------------------------------------------|
|-----------------------------------------------------------------------|
|-----------------------------------------------------------------------|
|-----------------------------------------------------------------------|

Am Em C
|-----------------------------------------------------------------------|
|--15fb-12----------------------------------------13-12-------h13p1210-|
|----------14fb-12--11h12----------------11-12-14-----------------------|
|-----------------------------14-----14---------------------------------|
|-----------------------------------------------------------------------|
|-----------------------------------------------------------------------|

B7 Am Em
|---------------------------------------------15fb----------------------|
|--13fb----13-----12--12-(12)-------12hb--10-----------7hb--------------|
|------------------------------------------------------------9--9-------|
|-----------------------------------------------------------------------|
|-----------------------------------------------------------------------|
|-----------------------------------------------------------------------|

C B7 Am Em
|-----------------------------------------------------------------------|
|-----7hb---------------------------------------------------------------|
|----------9--9--9?-9--8--8/11---------11hb--9-----------------9--------|
|-----------------------------------------------11--10--11--------------|
|-----------------------------------------------------------------------|
|-----------------------------------------------------------------------|

C B7 A5
|-----------------------------------------------------------------------|
|---------7h8p7--------------------------------------------7hb---7-10fb-|
|----------------------9------8hb----8------/11----9fb-8-9-----9--------|
|-----------------------------------------------------------------------|
|-----------------------------------------------------------------------|
|-----------------------------------------------------------------------|

G F#
|-7-8p7-11p7-8-11-12/14-11-12--14/15-12-14-15p14-12----14p11-12h14p12---|
|---------------------------------------------------15----------------15|
|-----------------------------------------------------------------------|
|-----------------------------------------------------------------------|
|-----------------------------------------------------------------------|
|-----------------------------------------------------------------------|

Em E F# G5
|-17--------------------------------------------------------------------|
|----15fb--15fb--15fb--15fb--15fbp12-----15fb---15fb-------15fbp12------|
|------------------------------------14----------------------------14---|
|-----------------------------------------------------------------------|
|----------withwah--------------------------------------------------|
|-----------------------------------------------------------------------|

A5 B5 C5 D5 G5 (bend the chord 1/4)
|----------------------------------15-----------------------------------|
|--17^---17^--------17^----17^----------17^---------17^-p15--15h17------|
|-------------------17^-------------------------------------------------|
|-----------------------------------------------------------------------|
|-----------------------------------------------------------------------|
|-----------------------------------------------------------------------|

G5 A5
|-----------12----------------------------------------------------------|
|-15^------------15---12------------------------------------------------|
|---------------------------14^-p12-14---12-14----12--14^----12--14--12-|
|-----------------------------------------------------------------------|
|-----------------------------------------------------------------------|
|-----------------------------------------------------------------------|

B5 C5 D5 G5 Em
|----15-------------15-----15-----15------------------------------------|
|----15-------15----15-----15-------15----------------------------------|
|-14^--14--12-14^-----14^----14^------14^-p12----14p12--x-x----12^------|
|---------------------------------------------14--------x-x-------------|
|-----------------------------------------------------------------------|
|-----------------------------------------------------------------------|

G5 A5
|-----------------------------------------------------------------------|
|-----------------------------------------------------------------------|
|-----------------12h14p12----12^--------------------12h14p12-----12-12-|
|-14p12-14----x-x----------14--------14p12-14----x-x----------14--------|
|-----------------------------------------------------------------------|
|-----------------------------------------------------------------------|

B5 C5 D5



|----------------------------------------------12-12-------15-15p12--15-|
|-------------------12-12-------15-15p12-------------15p12--------------|
|-------14-14p12-14-------14p12-----------------------------------------|
|-14p12-----------------------------------------------------------------|
|-----------------------------------------------------------------------|
|-----------------------------------------------------------------------|

G5 Em
|-14----12h15p12---------12-----------12-----------12-----------12------|
|----15----------15--15^----15p12--------15p12-15^----15p12--------15p12|
|----------------------------------14^-----------------------14^--------|
|-----------------------------------------------------------------------|
|-----------------------------------------------------------------------|
|-----------------------------------------------------------------------|

G5 A5
|------12-----------12-----------12--------------12-------15^-----------|
|--15^----15p12--------15p12-15^----15p12-----12----15p12---------------|
|---------------14^-----------------------14^---------------------------|
|-----------------------------------------------------------------------|
|-----------------------------------------------------------------------|
|-----------------------------------------------------------------------|

B5 C5 D5
|--------------------15------12h15p12----12------12---------------------|
|-------------------------------------15-----15^-----15p12--------------|
|-----------------------------------------------------------14^-p12-14^-|
|-----------------------------------------------------------------------|
|-----------------------------------------------------------------------|
|-----------------------------------------------------------------------|

G5 E5
|---------------------------------------------------|
|-------15------------------------------------------|
|----------14^-p12-14^----14p12--------------12----|
|----------------------14-------14------------------|
|---------------------------------------------------|
|---------------------------------------------------|
Where do we go?....

Following vocals ad lib over E5 F#5 G5 A5 B5 C5 D5 G5 chord sequence

Where do we go?_____ Where do we go_____now?
Where do we go?_____ Where do we go?______
Where do we go____now?_____ Where do we go?______
Where do we go?_____ CHILD !
Where do we go____now? Where do we go______now,
Now?_________________Where do we go?

Ending:
|--------------------------------------------------------------------|
|-----------------------------------------------------------------9--|
|---------------------------------------------------------------9----|
|--14-/-9----9/5---------------------------------------------9-------|
|---------------------10-/-7-/-2---------------------------7---------|
|-------------------------------------5-/-3hb---3-/-0----------------|










BENDERA (COKELAT)

Int:

A D
|----------------------------------------|
|----------------------------------------|
|---666--------------------6666----777---|------------à diulang 2x
|---777---6h7--diulang-3X--7777----777---|
|---777--------------------7777----555---|
|---555--------------------5555----xxx---|

Gitar 1
|---------------5~--5------------------5~--|
|---5-----5--7---------7--5-----5--77------|
|------6---------------------6-------------|----à diulang-ulang
|------------------------------------------|
|------------------------------------------|
|------------------------------------------|
| |
|Gitar 2 |
| A B C# B |
|-----------------------------|
|-----------------------------|
|-----------------------------|
|-----------------------------|--à 2X
|--77X79-9-X9-1111X11-9-X9----|
|--55X57-7-X7-9-9-X9--7-X7----|


lagu

Int:

Gitar 1
|---------------5~--5------------------5~--| 2|--9-10--|
|---5-----5--7---------7--5-----5--77------| 3|--------|
|------6---------------------6-------------|----à diulang-ulang
|------------------------------------------|
|------------------------------------------|
|------------------------------------------|
| |
|Gitar 2 |
| A B C# B |
|-------------------------------|
|-------------------------------|
|-------------------------------|
|-------------------------------|
|--77X79-9-X9-1111X11-9-X9--67--|
|--55X57-7-X7-9-9-X9--7-X7--45--|

Verse: (fill)


lagu

|-------------------------|
|-------------------------|
|-------------------------|--àgitar 1
|-----------------9---7---|
|---4----7-----7----------|
|---2----4-----5----------|
| |
|-----------------|
|-----------------|
|--12--10---7-----| ---àgitar 2
|---------------9-|
|-----------------|
|-----------------|

Kuperta...hankan kau demi tumpah darah, s’mua pahlawan-pahlawanku....

|-------------------------------|
|-------------------------------|
|-------------------------------|--àgitar 1
|-----------------7--9-999999---|
|--4----7----7----5--7-777777---|
|--2----4----5----X-------------|
| |
|-------------------|
|-------------------|
|-------------------| ---àgitar 2
|---\gunakan-pick---|
|---\gunakan-pick---|
|-------------------|

Reff

Solo:

|---------------------------|
|---------------------------|
|---------------------------| ----à4x
|---131313111111999888------|
|---------------------9999--|
|---------------------------|

A D
|----------------------------------------|
|----------------------------------------|
|---666--------------------6666----777---|
|---777-—-6h7—-diulang-3X--7777----777---|
|---777--------------------7777----555---|
|---555--------------------5555----xxx---|


A B
Biar saja ku tak seharum bunga mawar
D A E5




|-------------------------|
|-------------------------|
|-------------------------|--àgitar 1
|-----------------9---7---|
|---4----7-----7----------|
|---2----4-----5----------|
| |
|-----------------|
|-----------------|
|--12--10---7-----| ---àgitar 2
|---------------9-|
|-----------------|
|-----------------|

Kuperta...hankan kau demi tumpah darah, s’mua pahlawan-pahlawanku....

|-------------------------------|
|-------------------------------|
|-------------------------------|
|----------------7---9-999999---|
|--4----7----7---5---7-777777---|
|--2----4----5---X--------------|

Reff

A5 E5 F# E5


Fill: (mutt)distortion

|---------------------------------------|
|---------------------------------------|
|----------------------------------4----|
|----4-6---4-6-4-6-diulang-ulang-----6--|
|--5-----5------------------------------|
|---------------------------------------|


Key tab~

h = pull-on
/ = slide-down
\ = slide-up
~ = vibrato


A A5 E E5 F#` G#`
|-5-------7---0----x-----x---|
|-7---0---9---2----9-----11--|
|-7---2---9---2----11----13--|
|-----2----------------------|
|----------------------------|
|----------------------------|

Tidak ada komentar:

Poskan Komentar

taburkan inspirasi kita di fasilitas internet.
inilah perubahan zaman yng patut kita kembangkan. dengan internet kita bisa menuangkan ilmu kita yang pernah kita tau dan pahami dengan tidak memperhatikan setatus anda.

apa yang telah anda lakukan untuk hidup anda selanjutnya?

Pengikut